ISO-10303-21;
HEADER;
FILE_DESCRIPTION (( 'STEP AP203' ),
    '1' );
FILE_NAME ('End Cap SDR17_001 115 0140 0355.step',
    '2019-12-16T11:43:32',
    ( '' ),
    ( '' ),
    'SwSTEP 2.0',
    'SolidWorks 2019',
    '' );
FILE_SCHEMA (( 'CONFIG_CONTROL_DESIGN' ));
ENDSEC;

DATA;
#1 = EDGE_CURVE ( 'NONE', #189, #21, #229, .T. ) ;
#2 = ORIENTED_EDGE ( 'NONE', *, *, #122, .T. ) ;
#3 = ORIENTED_EDGE ( 'NONE', *, *, #9, .F. ) ;
#4 = ADVANCED_FACE ( 'NONE', ( #210 ), #171, .F. ) ;
#5 = CARTESIAN_POINT ( 'NONE',  ( 0.0000000000000000000, 0.0000000000000000000, -156.3999999999999204 ) ) ;
#6 = AXIS2_PLACEMENT_3D ( 'NONE', #295, #85, #196 ) ;
#7 =( GEOMETRIC_REPRESENTATION_CONTEXT ( 3 ) GLOBAL_UNCERTAINTY_ASSIGNED_CONTEXT ( ( #169 ) ) GLOBAL_UNIT_ASSIGNED_CONTEXT ( ( #129, #97, #71 ) ) REPRESENTATION_CONTEXT ( 'NONE', 'WORKASPACE' ) );
#8 = CARTESIAN_POINT ( 'NONE',  ( 6.866281462085378803E-16, -508.1945687542209953, 5.606744301186228796 ) ) ;
#9 = EDGE_CURVE ( 'NONE', #189, #136, #164, .T. ) ;
#10 = LINE ( 'NONE', #110, #134 ) ;
#11 = CARTESIAN_POINT ( 'NONE',  ( 0.0000000000000000000, 180.6832931670791993, 0.0000000000000000000 ) ) ;
#12 = PERSON_AND_ORGANIZATION ( #143, #293 ) ;
#13 = APPROVAL ( #118, 'BELÝRTÝLMEMÝÞ' ) ;
#14 = PERSON_AND_ORGANIZATION ( #143, #293 ) ;
#15 = DIRECTION ( 'NONE',  ( -0.0000000000000000000, -1.000000000000000000, -0.0000000000000000000 ) ) ;
#16 = PERSON_AND_ORGANIZATION_ROLE ( 'classification_officer' ) ;
#17 = CARTESIAN_POINT ( 'NONE',  ( 0.0000000000000000000, 0.0000000000000000000, -177.4999999999999716 ) ) ;
#18 = DIRECTION ( 'NONE',  ( -0.0000000000000000000, -1.000000000000000000, -0.0000000000000000000 ) ) ;
#19 = DIRECTION ( 'NONE',  ( 0.0000000000000000000, 0.0000000000000000000, -1.000000000000000000 ) ) ;
#20 = ORIENTED_EDGE ( 'NONE', *, *, #60, .F. ) ;
#21 = VERTEX_POINT ( 'NONE', #26 ) ;
#22 = PRODUCT_DEFINITION_FORMATION_WITH_SPECIFIED_SOURCE ( 'HERHANGÝ', '', #247, .NOT_KNOWN. ) ;
#23 = VERTEX_POINT ( 'NONE', #141 ) ;
#24 = VERTEX_POINT ( 'NONE', #230 ) ;
#25 = DESIGN_CONTEXT ( 'detailed design', #219, 'design' ) ;
#26 = CARTESIAN_POINT ( 'NONE',  ( 0.0000000000000000000, 0.0000000000000000000, -156.3999999999999488 ) ) ;
#27 = AXIS2_PLACEMENT_3D ( 'NONE', #185, #266, #42 ) ;
#28 = CARTESIAN_POINT ( 'NONE',  ( 0.0000000000000000000, 0.0000000000000000000, 0.0000000000000000000 ) ) ;
#29 = DIRECTION ( 'NONE',  ( -1.000000000000000000, 0.0000000000000000000, 0.0000000000000000000 ) ) ;
#30 = FACE_OUTER_BOUND ( 'NONE', #130, .T. ) ;
#31 = AXIS2_PLACEMENT_3D ( 'NONE', #127, #222, #304 ) ;
#32 = CIRCLE ( 'NONE', #31, 177.4999999999999716 ) ;
#33 = PERSON_AND_ORGANIZATION ( #143, #293 ) ;
#34 = EDGE_CURVE ( 'NONE', #24, #286, #159, .T. ) ;
#35 = CALENDAR_DATE ( 2019, 16, 12 ) ;
#36 = PERSON_AND_ORGANIZATION_ROLE ( 'design_supplier' ) ;
#37 = CARTESIAN_POINT ( 'NONE',  ( 0.0000000000000000000, 0.0000000000000000000, 0.0000000000000000000 ) ) ;
#38 = AXIS2_PLACEMENT_3D ( 'NONE', #184, #242, #19 ) ;
#39 = LOCAL_TIME ( 14, 43, 32.00000000000000000, #181 ) ;
#40 = DATE_AND_TIME ( #261, #39 ) ;
#41 = DIRECTION ( 'NONE',  ( -0.0000000000000000000, -1.000000000000000000, -0.0000000000000000000 ) ) ;
#42 = DIRECTION ( 'NONE',  ( 0.0000000000000000000, 0.0000000000000000000, -1.000000000000000000 ) ) ;
#43 = CIRCLE ( 'NONE', #38, 177.4999999999999716 ) ;
#44 = APPROVAL ( #281, 'BELÝRTÝLMEMÝÞ' ) ;
#45 = VERTEX_POINT ( 'NONE', #290 ) ;
#46 = ORIENTED_EDGE ( 'NONE', *, *, #104, .T. ) ;
#47 = AXIS2_PLACEMENT_3D ( 'NONE', #263, #41, #156 ) ;
#48 = TOROIDAL_SURFACE ( 'NONE', #47, 5.606744301186228796, 688.9006780566564885 ) ;
#49 = PRODUCT_DEFINITION_SHAPE ( 'NONE', 'NONE',  #243 ) ;
#50 = ORIENTED_EDGE ( 'NONE', *, *, #115, .F. ) ;
#51 = EDGE_LOOP ( 'NONE', ( #74, #270, #98 ) ) ;
#52 = DIRECTION ( 'NONE',  ( 0.0000000000000000000, 0.0000000000000000000, -1.000000000000000000 ) ) ;
#53 = CARTESIAN_POINT ( 'NONE',  ( 0.0000000000000000000, 164.0000000000000284, 0.0000000000000000000 ) ) ;
#54 = AXIS2_PLACEMENT_3D ( 'NONE', #94, #203, #283 ) ;
#55 = DIRECTION ( 'NONE',  ( -0.0000000000000000000, -1.000000000000000000, -0.0000000000000000000 ) ) ;
#56 = EDGE_CURVE ( 'NONE', #105, #21, #157, .T. ) ;
#57 = DIRECTION ( 'NONE',  ( -1.000000000000000000, 0.0000000000000000000, 0.0000000000000000000 ) ) ;
#58 = TOROIDAL_SURFACE ( 'NONE', #54, 5.606744301186228796, 709.9999999999997726 ) ;
#59 = MECHANICAL_CONTEXT ( 'NONE', #206, 'mechanical' ) ;
#60 = EDGE_CURVE ( 'NONE', #136, #189, #150, .T. ) ;
#61 = AXIS2_PLACEMENT_3D ( 'NONE', #241, #18, #124 ) ;
#62 = PERSON_AND_ORGANIZATION ( #143, #293 ) ;
#63 = PERSON_AND_ORGANIZATION ( #143, #293 ) ;
#64 = EDGE_CURVE ( 'NONE', #21, #105, #140, .T. ) ;
#65 = CARTESIAN_POINT ( 'NONE',  ( 0.0000000000000000000, 164.0000000000000284, -156.3999999999998920 ) ) ;
#66 = APPROVAL_ROLE ( '' ) ;
#67 = DIRECTION ( 'NONE',  ( -0.0000000000000000000, -1.000000000000000000, -0.0000000000000000000 ) ) ;
#68 = CC_DESIGN_APPROVAL ( #198, ( #243 ) ) ;
#69 = PLANE ( 'NONE',  #27 ) ;
#70 = CC_DESIGN_DATE_AND_TIME_ASSIGNMENT ( #149, #237, ( #243 ) ) ;
#71 =( NAMED_UNIT ( * ) SI_UNIT ( $, .STERADIAN. ) SOLID_ANGLE_UNIT ( ) );
#72 = AXIS2_PLACEMENT_3D ( 'NONE', #282, #67, #183 ) ;
#73 = ORIENTED_EDGE ( 'NONE', *, *, #128, .F. ) ;
#74 = ORIENTED_EDGE ( 'NONE', *, *, #104, .F. ) ;
#75 = ORIENTED_EDGE ( 'NONE', *, *, #56, .F. ) ;
#76 = TOROIDAL_SURFACE ( 'NONE', #61, 5.606744301186228796, 709.9999999999997726 ) ;
#77 = ORIENTED_EDGE ( 'NONE', *, *, #268, .F. ) ;
#78 = CARTESIAN_POINT ( 'NONE',  ( 0.0000000000000000000, 164.0000000000000284, 0.0000000000000000000 ) ) ;
#79 = CARTESIAN_POINT ( 'NONE',  ( 0.0000000000000000000, 0.0000000000000000000, 0.0000000000000000000 ) ) ;
#80 = DIRECTION ( 'NONE',  ( 1.000000000000000000, 0.0000000000000000000, -1.224646799147353207E-16 ) ) ;
#81 = AXIS2_PLACEMENT_3D ( 'NONE', #37, #153, #239 ) ;
#82 = VECTOR ( 'NONE', #302, 1000.000000000000000 ) ;
#83 = LOCAL_TIME ( 14, 43, 32.00000000000000000, #121 ) ;
#84 = CARTESIAN_POINT ( 'NONE',  ( 0.0000000000000000000, 0.0000000000000000000, -177.5000000000000000 ) ) ;
#85 = DIRECTION ( 'NONE',  ( 0.0000000000000000000, 0.0000000000000000000, 1.000000000000000000 ) ) ;
#86 = AXIS2_PLACEMENT_3D ( 'NONE', #90, #200, #280 ) ;
#87 = CALENDAR_DATE ( 2019, 16, 12 ) ;
#88 = EDGE_CURVE ( 'NONE', #136, #105, #10, .T. ) ;
#89 = CALENDAR_DATE ( 2019, 16, 12 ) ;
#90 = CARTESIAN_POINT ( 'NONE',  ( 0.0000000000000000000, 0.0000000000000000000, 0.0000000000000000000 ) ) ;
#91 = DATE_TIME_ROLE ( 'classification_date' ) ;
#92 = FACE_OUTER_BOUND ( 'NONE', #223, .T. ) ;
#93 = AXIS2_PLACEMENT_3D ( 'NONE', #233, #15, #120 ) ;
#94 = CARTESIAN_POINT ( 'NONE',  ( 0.0000000000000000000, -508.1945687542209953, 0.0000000000000000000 ) ) ;
#95 = CARTESIAN_POINT ( 'NONE',  ( 2.173748068486551720E-14, 180.6832931670791993, 177.5000000000000000 ) ) ;
#96 = EDGE_CURVE ( 'NONE', #23, #136, #133, .T. ) ;
#97 =( NAMED_UNIT ( * ) PLANE_ANGLE_UNIT ( ) SI_UNIT ( $, .RADIAN. ) );
#98 = ORIENTED_EDGE ( 'NONE', *, *, #60, .T. ) ;
#99 = AXIS2_PLACEMENT_3D ( 'NONE', #276, #57, #174 ) ;
#100 = CIRCLE ( 'NONE', #99, 709.9999999999997726 ) ;
#101 = ORIENTED_EDGE ( 'NONE', *, *, #64, .F. ) ;
#102 = EDGE_LOOP ( 'NONE', ( #205, #306, #287, #167 ) ) ;
#103 = EDGE_CURVE ( 'NONE', #286, #305, #126, .T. ) ;
#104 = EDGE_CURVE ( 'NONE', #23, #189, #119, .T. ) ;
#105 = VERTEX_POINT ( 'NONE', #232 ) ;
#106 = VECTOR ( 'NONE', #195, 1000.000000000000000 ) ;
#107 = DIRECTION ( 'NONE',  ( -0.0000000000000000000, -1.000000000000000000, -0.0000000000000000000 ) ) ;
#108 = DIRECTION ( 'NONE',  ( 1.000000000000000000, 0.0000000000000000000, -1.224646799147353207E-16 ) ) ;
#109 = CC_DESIGN_DATE_AND_TIME_ASSIGNMENT ( #301, #91, ( #260 ) ) ;
#110 = CARTESIAN_POINT ( 'NONE',  ( 1.915347593866459547E-14, 0.0000000000000000000, 156.3999999999999204 ) ) ;
#111 = AXIS2_PLACEMENT_3D ( 'NONE', #11, #112, #214 ) ;
#112 = DIRECTION ( 'NONE',  ( -0.0000000000000000000, -1.000000000000000000, -0.0000000000000000000 ) ) ;
#113 = CIRCLE ( 'NONE', #111, 177.5000000000000000 ) ;
#114 = APPROVAL_PERSON_ORGANIZATION ( #12, #198, #216 ) ;
#115 = EDGE_CURVE ( 'NONE', #305, #286, #113, .T. ) ;
#116 = APPROVAL_STATUS ( 'not_yet_approved' ) ;
#117 = AXIS2_PLACEMENT_3D ( 'NONE', #254, #29, #144 ) ;
#118 = APPROVAL_STATUS ( 'not_yet_approved' ) ;
#119 = CIRCLE ( 'NONE', #117, 688.9006780566564885 ) ;
#120 = DIRECTION ( 'NONE',  ( 0.0000000000000000000, 0.0000000000000000000, -1.000000000000000000 ) ) ;
#121 = COORDINATED_UNIVERSAL_TIME_OFFSET ( 3, 0, .AHEAD. ) ;
#122 = EDGE_CURVE ( 'NONE', #305, #207, #294, .T. ) ;
#123 = LINE ( 'NONE', #221, #82 ) ;
#124 = DIRECTION ( 'NONE',  ( 0.0000000000000000000, 0.0000000000000000000, -1.000000000000000000 ) ) ;
#125 = AXIS2_PLACEMENT_3D ( 'NONE', #275, #55, #173 ) ;
#126 = CIRCLE ( 'NONE', #125, 177.5000000000000000 ) ;
#127 = CARTESIAN_POINT ( 'NONE',  ( 0.0000000000000000000, 0.0000000000000000000, 0.0000000000000000000 ) ) ;
#128 = EDGE_CURVE ( 'NONE', #24, #305, #100, .T. ) ;
#129 =( LENGTH_UNIT ( ) NAMED_UNIT ( * ) SI_UNIT ( .MILLI., .METRE. ) );
#130 = EDGE_LOOP ( 'NONE', ( #162, #3, #186, #269 ) ) ;
#131 = ORIENTED_EDGE ( 'NONE', *, *, #103, .T. ) ;
#132 = AXIS2_PLACEMENT_3D ( 'NONE', #291, #80, #194 ) ;
#133 = CIRCLE ( 'NONE', #132, 688.9006780566564885 ) ;
#134 = VECTOR ( 'NONE', #212, 1000.000000000000000 ) ;
#135 = CC_DESIGN_APPROVAL ( #13, ( #22 ) ) ;
#136 = VERTEX_POINT ( 'NONE', #255 ) ;
#137 = EDGE_LOOP ( 'NONE', ( #166, #285 ) ) ;
#138 = AXIS2_PLACEMENT_3D ( 'NONE', #28, #142, #231 ) ;
#139 = CC_DESIGN_PERSON_AND_ORGANIZATION_ASSIGNMENT ( #62, #177, ( #243 ) ) ;
#140 = CIRCLE ( 'NONE', #138, 156.3999999999999488 ) ;
#141 = CARTESIAN_POINT ( 'NONE',  ( -1.432716039157874320E-14, 180.6832931670791993, 0.0000000000000000000 ) ) ;
#142 = DIRECTION ( 'NONE',  ( -0.0000000000000000000, -1.000000000000000000, -0.0000000000000000000 ) ) ;
#143 = PERSON ( 'BELÝRTÝLMEMÝÞ', 'BELÝRTÝLMEMÝÞ', 'BELÝRTÝLMEMÝÞ', ('BELÝRTÝLMEMÝÞ'), ('BELÝRTÝLMEMÝÞ'), ('BELÝRTÝLMEMÝÞ') ) ;
#144 = DIRECTION ( 'NONE',  ( 0.0000000000000000000, 0.0000000000000000000, 1.000000000000000000 ) ) ;
#145 = AXIS2_PLACEMENT_3D ( 'NONE', #53, #172, #253 ) ;
#146 = CYLINDRICAL_SURFACE ( 'NONE', #93, 156.3999999999999204 ) ;
#147 = ADVANCED_FACE ( 'NONE', ( #30 ), #146, .F. ) ;
#148 = PERSON_AND_ORGANIZATION_ROLE ( 'design_owner' ) ;
#149 = DATE_AND_TIME ( #35, #213 ) ;
#150 = CIRCLE ( 'NONE', #145, 156.3999999999998920 ) ;
#151 = SECURITY_CLASSIFICATION_LEVEL ( 'unclassified' ) ;
#152 = AXIS2_PLACEMENT_3D ( 'NONE', #79, #192, #274 ) ;
#153 = DIRECTION ( 'NONE',  ( -0.0000000000000000000, -1.000000000000000000, -0.0000000000000000000 ) ) ;
#154 = APPROVAL_DATE_TIME ( #40, #44 ) ;
#155 = FACE_OUTER_BOUND ( 'NONE', #228, .T. ) ;
#156 = DIRECTION ( 'NONE',  ( 0.0000000000000000000, 0.0000000000000000000, -1.000000000000000000 ) ) ;
#157 = CIRCLE ( 'NONE', #152, 156.3999999999999488 ) ;
#158 = AXIS2_PLACEMENT_3D ( 'NONE', #8, #108, #211 ) ;
#159 = CIRCLE ( 'NONE', #158, 709.9999999999997726 ) ;
#160 = CARTESIAN_POINT ( 'NONE',  ( 0.0000000000000000000, 180.6832931670791993, -177.5000000000000000 ) ) ;
#161 = ORIENTED_EDGE ( 'NONE', *, *, #1, .F. ) ;
#162 = ORIENTED_EDGE ( 'NONE', *, *, #88, .F. ) ;
#163 = AXIS2_PLACEMENT_3D ( 'NONE', #78, #170, #251 ) ;
#164 = CIRCLE ( 'NONE', #163, 156.3999999999998920 ) ;
#165 = AXIS2_PLACEMENT_3D ( 'NONE', #191, #272, #52 ) ;
#166 = ORIENTED_EDGE ( 'NONE', *, *, #265, .T. ) ;
#167 = ORIENTED_EDGE ( 'NONE', *, *, #122, .F. ) ;
#168 = ADVANCED_FACE ( 'NONE', ( #218 ), #300, .T. ) ;
#169 = UNCERTAINTY_MEASURE_WITH_UNIT (LENGTH_MEASURE( 1.000000000000000082E-05 ), #129, 'distance_accuracy_value', 'NONE');
#170 = DIRECTION ( 'NONE',  ( -0.0000000000000000000, -1.000000000000000000, -0.0000000000000000000 ) ) ;
#171 = TOROIDAL_SURFACE ( 'NONE', #165, 5.606744301186228796, 688.9006780566564885 ) ;
#172 = DIRECTION ( 'NONE',  ( -0.0000000000000000000, -1.000000000000000000, -0.0000000000000000000 ) ) ;
#173 = DIRECTION ( 'NONE',  ( 0.0000000000000000000, 0.0000000000000000000, -1.000000000000000000 ) ) ;
#174 = DIRECTION ( 'NONE',  ( 0.0000000000000000000, 0.0000000000000000000, 1.000000000000000000 ) ) ;
#175 = VECTOR ( 'NONE', #107, 1000.000000000000000 ) ;
#176 = CLOSED_SHELL ( 'NONE', ( #252, #244, #168, #190, #147, #297, #234, #236, #4 ) ) ;
#177 = PERSON_AND_ORGANIZATION_ROLE ( 'creator' ) ;
#178 = CC_DESIGN_PERSON_AND_ORGANIZATION_ASSIGNMENT ( #238, #16, ( #260 ) ) ;
#179 = PERSON_AND_ORGANIZATION_ROLE ( 'creator' ) ;
#180 = FACE_OUTER_BOUND ( 'NONE', #271, .T. ) ;
#181 = COORDINATED_UNIVERSAL_TIME_OFFSET ( 3, 0, .AHEAD. ) ;
#182 = APPROVAL_PERSON_ORGANIZATION ( #14, #13, #217 ) ;
#183 = DIRECTION ( 'NONE',  ( 0.0000000000000000000, 0.0000000000000000000, -1.000000000000000000 ) ) ;
#184 = CARTESIAN_POINT ( 'NONE',  ( 0.0000000000000000000, 0.0000000000000000000, 0.0000000000000000000 ) ) ;
#185 = CARTESIAN_POINT ( 'NONE',  ( 156.3999999999999488, 0.0000000000000000000, 0.0000000000000000000 ) ) ;
#186 = ORIENTED_EDGE ( 'NONE', *, *, #1, .T. ) ;
#187 = ORIENTED_EDGE ( 'NONE', *, *, #34, .T. ) ;
#188 = EDGE_LOOP ( 'NONE', ( #101, #75 ) ) ;
#189 = VERTEX_POINT ( 'NONE', #65 ) ;
#190 = ADVANCED_FACE ( 'NONE', ( #180 ), #259, .F. ) ;
#191 = CARTESIAN_POINT ( 'NONE',  ( 0.0000000000000000000, -508.1945687542209953, 0.0000000000000000000 ) ) ;
#192 = DIRECTION ( 'NONE',  ( -0.0000000000000000000, -1.000000000000000000, -0.0000000000000000000 ) ) ;
#193 = CC_DESIGN_APPROVAL ( #44, ( #260 ) ) ;
#194 = DIRECTION ( 'NONE',  ( -1.224646799147352961E-16, 0.0000000000000000000, -1.000000000000000000 ) ) ;
#195 = DIRECTION ( 'NONE',  ( -0.0000000000000000000, -1.000000000000000000, -0.0000000000000000000 ) ) ;
#196 = DIRECTION ( 'NONE',  ( 1.000000000000000000, 0.0000000000000000000, 0.0000000000000000000 ) ) ;
#197 = DATE_AND_TIME ( #87, #248 ) ;
#198 = APPROVAL ( #116, 'BELÝRTÝLMEMÝÞ' ) ;
#199 = DATE_AND_TIME ( #89, #292 ) ;
#200 = DIRECTION ( 'NONE',  ( -0.0000000000000000000, -1.000000000000000000, -0.0000000000000000000 ) ) ;
#201 = PERSON_AND_ORGANIZATION ( #143, #293 ) ;
#202 = CYLINDRICAL_SURFACE ( 'NONE', #72, 177.5000000000000000 ) ;
#203 = DIRECTION ( 'NONE',  ( -0.0000000000000000000, -1.000000000000000000, -0.0000000000000000000 ) ) ;
#204 = FACE_OUTER_BOUND ( 'NONE', #137, .T. ) ;
#205 = ORIENTED_EDGE ( 'NONE', *, *, #115, .T. ) ;
#206 = APPLICATION_CONTEXT ( 'configuration controlled 3d designs of mechanical parts and assemblies' ) ;
#207 = VERTEX_POINT ( 'NONE', #17 ) ;
#208 = EDGE_LOOP ( 'NONE', ( #267, #46, #249 ) ) ;
#209 = ORIENTED_EDGE ( 'NONE', *, *, #103, .F. ) ;
#210 = FACE_OUTER_BOUND ( 'NONE', #208, .T. ) ;
#211 = DIRECTION ( 'NONE',  ( -1.224646799147353207E-16, 0.0000000000000000000, -1.000000000000000000 ) ) ;
#212 = DIRECTION ( 'NONE',  ( -0.0000000000000000000, -1.000000000000000000, -0.0000000000000000000 ) ) ;
#213 = LOCAL_TIME ( 14, 43, 32.00000000000000000, #256 ) ;
#214 = DIRECTION ( 'NONE',  ( 0.0000000000000000000, 0.0000000000000000000, -1.000000000000000000 ) ) ;
#215 = EDGE_CURVE ( 'NONE', #286, #45, #123, .T. ) ;
#216 = APPROVAL_ROLE ( '' ) ;
#217 = APPROVAL_ROLE ( '' ) ;
#218 = FACE_OUTER_BOUND ( 'NONE', #102, .T. ) ;
#219 = APPLICATION_CONTEXT ( 'configuration controlled 3d designs of mechanical parts and assemblies' ) ;
#220 = CALENDAR_DATE ( 2019, 16, 12 ) ;
#221 = CARTESIAN_POINT ( 'NONE',  ( 2.173748068486551720E-14, 0.0000000000000000000, 177.5000000000000000 ) ) ;
#222 = DIRECTION ( 'NONE',  ( -0.0000000000000000000, -1.000000000000000000, -0.0000000000000000000 ) ) ;
#223 = EDGE_LOOP ( 'NONE', ( #250, #131, #2, #77 ) ) ;
#224 = CC_DESIGN_PERSON_AND_ORGANIZATION_ASSIGNMENT ( #257, #36, ( #22 ) ) ;
#225 = EDGE_LOOP ( 'NONE', ( #245, #246, #209 ) ) ;
#226 = APPROVAL_PERSON_ORGANIZATION ( #201, #44, #66 ) ;
#227 = ORIENTED_EDGE ( 'NONE', *, *, #88, .T. ) ;
#228 = EDGE_LOOP ( 'NONE', ( #73, #187, #50 ) ) ;
#229 = LINE ( 'NONE', #5, #175 ) ;
#230 = CARTESIAN_POINT ( 'NONE',  ( -2.862293735361731706E-14, 201.7832931670792220, 0.0000000000000000000 ) ) ;
#231 = DIRECTION ( 'NONE',  ( 0.0000000000000000000, 0.0000000000000000000, -1.000000000000000000 ) ) ;
#232 = CARTESIAN_POINT ( 'NONE',  ( 1.915347593866459863E-14, 0.0000000000000000000, 156.3999999999999488 ) ) ;
#233 = CARTESIAN_POINT ( 'NONE',  ( 0.0000000000000000000, 0.0000000000000000000, 0.0000000000000000000 ) ) ;
#234 = ADVANCED_FACE ( 'NONE', ( #92 ), #202, .T. ) ;
#235 = APPLICATION_PROTOCOL_DEFINITION ( 'international standard', 'config_control_design', 1994, #219 ) ;
#236 = ADVANCED_FACE ( 'NONE', ( #262 ), #76, .T. ) ;
#237 = DATE_TIME_ROLE ( 'creation_date' ) ;
#238 = PERSON_AND_ORGANIZATION ( #143, #293 ) ;
#239 = DIRECTION ( 'NONE',  ( 0.0000000000000000000, 0.0000000000000000000, -1.000000000000000000 ) ) ;
#240 = SHAPE_DEFINITION_REPRESENTATION ( #49, #258 ) ;
#241 = CARTESIAN_POINT ( 'NONE',  ( 0.0000000000000000000, -508.1945687542209953, 0.0000000000000000000 ) ) ;
#242 = DIRECTION ( 'NONE',  ( -0.0000000000000000000, -1.000000000000000000, -0.0000000000000000000 ) ) ;
#243 = PRODUCT_DEFINITION ( 'BÝLÝNMEYEN', '', #22, #25 ) ;
#244 = ADVANCED_FACE ( 'NONE', ( #155 ), #58, .T. ) ;
#245 = ORIENTED_EDGE ( 'NONE', *, *, #34, .F. ) ;
#246 = ORIENTED_EDGE ( 'NONE', *, *, #128, .T. ) ;
#247 = PRODUCT ( 'End Cap SDR17_001 115 0140 0355', 'End Cap SDR17_001 115 0140 0355', '', ( #59 ) ) ;
#248 = LOCAL_TIME ( 14, 43, 32.00000000000000000, #296 ) ;
#249 = ORIENTED_EDGE ( 'NONE', *, *, #9, .T. ) ;
#250 = ORIENTED_EDGE ( 'NONE', *, *, #215, .F. ) ;
#251 = DIRECTION ( 'NONE',  ( 0.0000000000000000000, 0.0000000000000000000, -1.000000000000000000 ) ) ;
#252 = ADVANCED_FACE ( 'NONE', ( #303 ), #48, .F. ) ;
#253 = DIRECTION ( 'NONE',  ( 0.0000000000000000000, 0.0000000000000000000, -1.000000000000000000 ) ) ;
#254 = CARTESIAN_POINT ( 'NONE',  ( 0.0000000000000000000, -508.1945687542209953, -5.606744301186228796 ) ) ;
#255 = CARTESIAN_POINT ( 'NONE',  ( 1.915347593866459232E-14, 164.0000000000000284, 156.3999999999998920 ) ) ;
#256 = COORDINATED_UNIVERSAL_TIME_OFFSET ( 3, 0, .AHEAD. ) ;
#257 = PERSON_AND_ORGANIZATION ( #143, #293 ) ;
#258 = ADVANCED_BREP_SHAPE_REPRESENTATION ( 'End Cap SDR17_001 115 0140 0355', ( #264, #6 ), #7 ) ;
#259 = CYLINDRICAL_SURFACE ( 'NONE', #81, 156.3999999999999204 ) ;
#260 = SECURITY_CLASSIFICATION ( '', '', #151 ) ;
#261 = CALENDAR_DATE ( 2019, 16, 12 ) ;
#262 = FACE_OUTER_BOUND ( 'NONE', #225, .T. ) ;
#263 = CARTESIAN_POINT ( 'NONE',  ( 0.0000000000000000000, -508.1945687542209953, 0.0000000000000000000 ) ) ;
#264 = MANIFOLD_SOLID_BREP ( 'Döndür1', #176 ) ;
#265 = EDGE_CURVE ( 'NONE', #207, #45, #43, .T. ) ;
#266 = DIRECTION ( 'NONE',  ( 0.0000000000000000000, -1.000000000000000000, -0.0000000000000000000 ) ) ;
#267 = ORIENTED_EDGE ( 'NONE', *, *, #96, .F. ) ;
#268 = EDGE_CURVE ( 'NONE', #45, #207, #32, .T. ) ;
#269 = ORIENTED_EDGE ( 'NONE', *, *, #64, .T. ) ;
#270 = ORIENTED_EDGE ( 'NONE', *, *, #96, .T. ) ;
#271 = EDGE_LOOP ( 'NONE', ( #20, #227, #288, #161 ) ) ;
#272 = DIRECTION ( 'NONE',  ( -0.0000000000000000000, -1.000000000000000000, -0.0000000000000000000 ) ) ;
#273 = CC_DESIGN_PERSON_AND_ORGANIZATION_ASSIGNMENT ( #63, #179, ( #22 ) ) ;
#274 = DIRECTION ( 'NONE',  ( 0.0000000000000000000, 0.0000000000000000000, -1.000000000000000000 ) ) ;
#275 = CARTESIAN_POINT ( 'NONE',  ( 0.0000000000000000000, 180.6832931670791993, 0.0000000000000000000 ) ) ;
#276 = CARTESIAN_POINT ( 'NONE',  ( 0.0000000000000000000, -508.1945687542209953, -5.606744301186228796 ) ) ;
#277 = APPLICATION_PROTOCOL_DEFINITION ( 'international standard', 'config_control_design', 1994, #206 ) ;
#278 = APPROVAL_DATE_TIME ( #197, #198 ) ;
#279 = APPROVAL_DATE_TIME ( #199, #13 ) ;
#280 = DIRECTION ( 'NONE',  ( 0.0000000000000000000, 0.0000000000000000000, -1.000000000000000000 ) ) ;
#281 = APPROVAL_STATUS ( 'not_yet_approved' ) ;
#282 = CARTESIAN_POINT ( 'NONE',  ( 0.0000000000000000000, 0.0000000000000000000, 0.0000000000000000000 ) ) ;
#283 = DIRECTION ( 'NONE',  ( 0.0000000000000000000, 0.0000000000000000000, -1.000000000000000000 ) ) ;
#284 = FACE_BOUND ( 'NONE', #188, .T. ) ;
#285 = ORIENTED_EDGE ( 'NONE', *, *, #268, .T. ) ;
#286 = VERTEX_POINT ( 'NONE', #95 ) ;
#287 = ORIENTED_EDGE ( 'NONE', *, *, #265, .F. ) ;
#288 = ORIENTED_EDGE ( 'NONE', *, *, #56, .T. ) ;
#289 = CC_DESIGN_PERSON_AND_ORGANIZATION_ASSIGNMENT ( #33, #148, ( #247 ) ) ;
#290 = CARTESIAN_POINT ( 'NONE',  ( 2.173748068486551404E-14, 0.0000000000000000000, 177.4999999999999716 ) ) ;
#291 = CARTESIAN_POINT ( 'NONE',  ( 6.866281462085378803E-16, -508.1945687542209953, 5.606744301186228796 ) ) ;
#292 = LOCAL_TIME ( 14, 43, 32.00000000000000000, #298 ) ;
#293 = ORGANIZATION ( 'BELÝRTÝLMEMÝÞ', 'BELÝRTÝLMEMÝÞ', '' ) ;
#294 = LINE ( 'NONE', #84, #106 ) ;
#295 = CARTESIAN_POINT ( 'NONE',  ( 0.0000000000000000000, 0.0000000000000000000, 0.0000000000000000000 ) ) ;
#296 = COORDINATED_UNIVERSAL_TIME_OFFSET ( 3, 0, .AHEAD. ) ;
#297 = ADVANCED_FACE ( 'NONE', ( #204, #284 ), #69, .T. ) ;
#298 = COORDINATED_UNIVERSAL_TIME_OFFSET ( 3, 0, .AHEAD. ) ;
#299 = PRODUCT_RELATED_PRODUCT_CATEGORY ( 'detail', '', ( #247 ) ) ;
#300 = CYLINDRICAL_SURFACE ( 'NONE', #86, 177.5000000000000000 ) ;
#301 = DATE_AND_TIME ( #220, #83 ) ;
#302 = DIRECTION ( 'NONE',  ( -0.0000000000000000000, -1.000000000000000000, -0.0000000000000000000 ) ) ;
#303 = FACE_OUTER_BOUND ( 'NONE', #51, .T. ) ;
#304 = DIRECTION ( 'NONE',  ( 0.0000000000000000000, 0.0000000000000000000, -1.000000000000000000 ) ) ;
#305 = VERTEX_POINT ( 'NONE', #160 ) ;
#306 = ORIENTED_EDGE ( 'NONE', *, *, #215, .T. ) ;
#307 = CC_DESIGN_SECURITY_CLASSIFICATION ( #260, ( #22 ) ) ;
ENDSEC;
END-ISO-10303-21;
